  0
SECTION
  2
HEADER
  9
$ACADVER
  1
AC1009
  9
$INSBASE
 10
0.0
 20
0.0
 30
0.0
  9
$EXTMIN
 10
-23.521065280608799
 20
-35.966600261017781
 30
-0.0000000000022892
  9
$EXTMAX
 10
154.3841051299348
 20
28.268952005824641
 30
0.0000000000000001
  9
$LIMMIN
 10
0.0
 20
0.0
  9
$LIMMAX
 10
410.0
 20
287.0
  9
$ORTHOMODE
 70
     1
  9
$REGENMODE
 70
     1
  9
$FILLMODE
 70
     1
  9
$QTEXTMODE
 70
     0
  9
$MIRRTEXT
 70
     1
  9
$DRAGMODE
 70
     2
  9
$LTSCALE
 40
25.0
  9
$OSMODE
 70
    39
  9
$ATTMODE
 70
     1
  9
$TEXTSIZE
 40
2.0
  9
$TRACEWID
 40
1.0
  9
$TEXTSTYLE
  7
SIMPLEX
  9
$CLAYER
  8
0
  9
$CELTYPE
  6
BYLAYER
  9
$CECOLOR
 62
   256
  9
$DIMSCALE
 40
1.0
  9
$DIMASZ
 40
3.5
  9
$DIMEXO
 40
0.1
  9
$DIMDLI
 40
7.0
  9
$DIMRND
 40
0.0
  9
$DIMDLE
 40
0.0
  9
$DIMEXE
 40
1.8
  9
$DIMTP
 40
0.0
  9
$DIMTM
 40
0.0
  9
$DIMTXT
 40
3.5
  9
$DIMCEN
 40
1.5
  9
$DIMTSZ
 40
0.0
  9
$DIMTOL
 70
     0
  9
$DIMLIM
 70
     1
  9
$DIMTIH
 70
     0
  9
$DIMTOH
 70
     0
  9
$DIMSE1
 70
     0
  9
$DIMSE2
 70
     0
  9
$DIMTAD
 70
     1
  9
$DIMZIN
 70
     0
  9
$DIMBLK
  1

  9
$DIMASO
 70
     0
  9
$DIMSHO
 70
     0
  9
$DIMPOST
  1

  9
$DIMAPOST
  1

  9
$DIMALT
 70
     0
  9
$DIMALTD
 70
     2
  9
$DIMALTF
 40
25.399999999999999
  9
$DIMLFAC
 40
1.0
  9
$DIMTOFL
 70
     0
  9
$DIMTVP
 40
0.0
  9
$DIMTIX
 70
     0
  9
$DIMSOXD
 70
     0
  9
$DIMSAH
 70
     0
  9
$DIMBLK1
  1

  9
$DIMBLK2
  1

  9
$DIMSTYLE
  2
STANDARD
  9
$DIMCLRD
 70
     0
  9
$DIMCLRE
 70
     0
  9
$DIMCLRT
 70
     0
  9
$DIMTFAC
 40
1.0
  9
$DIMGAP
 40
0.09
  9
$LUNITS
 70
     2
  9
$LUPREC
 70
     2
  9
$SKETCHINC
 40
1.0
  9
$FILLETRAD
 40
0.0
  9
$AUNITS
 70
     0
  9
$AUPREC
 70
     0
  9
$MENU
  1
ACAD
  9
$ELEVATION
 40
0.0
  9
$PELEVATION
 40
0.0
  9
$THICKNESS
 40
0.0
  9
$LIMCHECK
 70
     0
  9
$BLIPMODE
 70
     0
  9
$CHAMFERA
 40
0.5
  9
$CHAMFERB
 40
0.5
  9
$SKPOLY
 70
     0
  9
$TDCREATE
 40
2448527.3363592592
  9
$TDUPDATE
 40
2452677.72024559
  9
$TDINDWG
 40
0.0674399074
  9
$TDUSRTIMER
 40
0.0674397917
  9
$USRTIMER
 70
     1
  9
$ANGBASE
 50
0.0
  9
$ANGDIR
 70
     0
  9
$PDMODE
 70
     0
  9
$PDSIZE
 40
0.0
  9
$PLINEWID
 40
0.0
  9
$COORDS
 70
     0
  9
$SPLFRAME
 70
     0
  9
$SPLINETYPE
 70
     6
  9
$SPLINESEGS
 70
     8
  9
$ATTDIA
 70
     0
  9
$ATTREQ
 70
     1
  9
$HANDLING
 70
  4097
  9
$HANDSEED
  5
3C3
  9
$SURFTAB1
 70
     6
  9
$SURFTAB2
 70
     6
  9
$SURFTYPE
 70
     6
  9
$SURFU
 70
     6
  9
$SURFV
 70
     6
  9
$UCSNAME
  2

  9
$UCSORG
 10
0.0
 20
0.0
 30
0.0
  9
$UCSXDIR
 10
1.0
 20
0.0
 30
0.0
  9
$UCSYDIR
 10
0.0
 20
1.0
 30
0.0
  9
$PUCSNAME
  2

  9
$PUCSORG
 10
0.0
 20
0.0
 30
0.0
  9
$PUCSXDIR
 10
1.0
 20
0.0
 30
0.0
  9
$PUCSYDIR
 10
0.0
 20
1.0
 30
0.0
  9
$USERI1
 70
     0
  9
$USERI2
 70
     0
  9
$USERI3
 70
     0
  9
$USERI4
 70
     0
  9
$USERI5
 70
     0
  9
$USERR1
 40
0.0
  9
$USERR2
 40
0.0
  9
$USERR3
 40
0.0
  9
$USERR4
 40
0.0
  9
$USERR5
 40
0.0
  9
$WORLDVIEW
 70
     1
  9
$SHADEDGE
 70
     3
  9
$SHADEDIF
 70
    70
  9
$TILEMODE
 70
     1
  9
$MAXACTVP
 70
    48
  9
$PLIMCHECK
 70
     0
  9
$PEXTMIN
 10
1.0000000000000000E+020
 20
1.0000000000000000E+020
 30
1.0000000000000000E+020
  9
$PEXTMAX
 10
-1.0000000000000000E+020
 20
-1.0000000000000000E+020
 30
-1.0000000000000000E+020
  9
$PLIMMIN
 10
0.0
 20
0.0
  9
$PLIMMAX
 10
12.0
 20
9.0
  9
$UNITMODE
 70
     0
  9
$VISRETAIN
 70
     1
  9
$PLINEGEN
 70
     0
  9
$PSLTSCALE
 70
     0
  0
ENDSEC
  0
SECTION
  2
TABLES
  0
TABLE
  2
VPORT
 70
     3
  0
VPORT
  2
*ACTIVE
 70
     0
 10
0.0
 20
0.0
 11
1.0
 21
1.0
 12
65.431519924662993
 22
-3.8488241275965711
 13
0.0
 23
0.0
 14
10.0
 24
10.0
 15
10.0
 25
10.0
 16
0.0
 26
0.0
 36
1.0
 17
0.0
 27
0.0
 37
0.0
 40
84.367249319433995
 41
2.126099706744867
 42
50.0
 43
0.0
 44
0.0
 50
0.0
 51
0.0
 71
     0
 72
   100
 73
     1
 74
     0
 75
     0
 76
     0
 77
     0
 78
     0
  0
ENDTAB
  0
TABLE
  2
LTYPE
 70
     3
  0
LTYPE
  2
CONTINUOUS
 70
     0
  3
Solid line
 72
    65
 73
     0
 40
0.0
  0
LTYPE
  2
MITTKLEIN
 70
     0
  3
__ . __ . ___ 
 72
    65
 73
     4
 40
0.45
 49
0.25
 49
-0.1
 49
0.0
 49
-0.1
  0
LTYPE
  2
VERDECKT
 70
     0
  3
_ _ _ _ _ _ _ _ _ _ _ _ _ _ _ _ _ _ _ _ _ _ _
 72
    65
 73
     2
 40
0.375
 49
0.25
 49
-0.125
  0
ENDTAB
  0
TABLE
  2
LAYER
 70
     5
  0
LAYER
  2
0
 70
     0
 62
     7
  6
CONTINUOUS
  0
LAYER
  2
KON35
 70
     0
 62
     2
  6
CONTINUOUS
  0
LAYER
  2
TEXT35
 70
     0
 62
     2
  6
CONTINUOUS
  0
LAYER
  2
MITTELLI
 70
     0
 62
     1
  6
MITTKLEIN
  0
LAYER
  2
VERDECKT
 70
     0
 62
     1
  6
VERDECKT
  0
ENDTAB
  0
TABLE
  2
STYLE
 70
     3
  0
STYLE
  2
STANDARD
 70
     0
 40
0.0
 41
1.0
 50
0.0
 71
     0
 42
2.5
  3
txt
  4

  0
STYLE
  2
SIMPLEX
 70
     0
 40
0.0
 41
1.0
 50
0.0
 71
     0
 42
2.0
  3
simplex
  4

  0
STYLE
  2
TEXT35
 70
     0
 40
3.5
 41
1.0
 50
0.0
 71
     0
 42
3.5
  3
simplex
  4

  0
ENDTAB
  0
TABLE
  2
VIEW
 70
     0
  0
ENDTAB
  0
TABLE
  2
UCS
 70
     0
  0
ENDTAB
  0
TABLE
  2
APPID
 70
     1
  0
APPID
  2
ACAD
 70
     0
  0
ENDTAB
  0
TABLE
  2
DIMSTYLE
 70
     1
  0
DIMSTYLE
  2
STANDARD
 70
     0
  3

  4

  5

  6

  7

 40
1.0
 41
0.18
 42
0.0625
 43
0.38
 44
0.18
 45
0.0
 46
0.0
 47
0.0
 48
0.0
140
0.18
141
0.09
142
0.0
143
25.399999999999999
144
1.0
145
0.0
146
1.0
147
0.09
 71
     0
 72
     0
 73
     1
 74
     1
 75
     0
 76
     0
 77
     0
 78
     0
170
     0
171
     2
172
     0
173
     0
174
     0
175
     0
176
     0
177
     0
178
     0
  0
ENDTAB
  0
ENDSEC
  0
SECTION
  2
BLOCKS
  0
BLOCK
  8
0
  2
$MODEL_SPACE
 70
     0
 10
0.0
 20
0.0
 30
0.0
  3
$MODEL_SPACE
  1

  0
ENDBLK
  5
247
  8
0
  0
BLOCK
 67
     1
  8
0
  2
$PAPER_SPACE
 70
     0
 10
0.0
 20
0.0
 30
0.0
  3
$PAPER_SPACE
  1

  0
ENDBLK
  5
243
 67
     1
  8
0
  0
BLOCK
  8
0
  2
ACAD
 70
     0
 10
0.0
 20
0.0
 30
0.0
  3
ACAD
  1

  0
ENDBLK
  5
25D
  8
0
  0
BLOCK
  8
0
  2
CAD
 70
     0
 10
0.0
 20
0.0
 30
0.0
  3
CAD
  1

  0
INSERT
  5
260
  8
KON35
  2
ACAD
 10
219.7466754081957
 20
258.0988816558845
 30
0.0
  0
ENDBLK
  5
261
  8
0
  0
ENDSEC
  0
SECTION
  2
ENTITIES
  0
INSERT
  5
262
  8
KON35
  2
ACAD
 10
611.6747307283008
 20
262.34888165588433
 30
0.0
  0
LINE
  5
263
  8
MITTELLI
 10
-23.494608484370641
 20
0.0000000000000284
 30
0.0
 11
154.37829791080711
 21
-0.0000000000001421
 31
0.0
  0
LINE
  5
264
  8
0
 10
0.0
 20
28.249960200000029
 30
0.0
 11
0.0
 21
-28.249960199999819
 31
0.0
  0
INSERT
  5
265
  8
KON35
  2
ACAD
 10
1001.6640374469659
 20
269.19283483160638
 30
0.0
  0
INSERT
  5
266
  8
KON35
  2
ACAD
 10
1687.9183674146921
 20
382.30321741200709
 30
0.0
  0
LINE
  5
267
  8
0
 10
0.0
 20
28.249960200000029
 30
0.0
 11
152.0
 21
28.249960199999769
 31
0.0
  0
LINE
  5
268
  8
0
 10
0.0
 20
-28.249960199999819
 30
0.0
 11
127.2735024217944
 21
-28.249960200000029
 31
0.0
  0
INSERT
  5
269
  8
KON35
  2
ACAD
 10
1001.014675725943
 20
263.03967115788242
 30
0.0
  0
INSERT
  5
26A
  8
KON35
  2
ACAD
 10
1201.87202860095
 20
326.92890892106487
 30
0.0
  0
INSERT
  5
26B
  8
KON35
  2
ACAD
 10
1001.003878233721
 20
262.34888165588433
 30
0.0
  0
INSERT
  5
26C
  8
KON35
  2
ACAD
 10
1033.981913451516
 20
270.24018600371028
 30
0.0
  0
INSERT
  5
26D
  8
KON35
  2
ACAD
 10
1220.3384542935071
 20
310.44614540078658
 30
0.0
  0
INSERT
  5
26E
  8
VERDECKT
  2
CAD
 10
1321.9481047729359
 20
40.273542154209757
 30
0.0
  0
INSERT
  5
26F
  8
VERDECKT
  2
CAD
 10
1635.6172637074631
 20
123.4404418294078
 30
0.0
  0
INSERT
  5
270
  8
KON35
  2
ACAD
 10
2241.796714007568
 20
260.25567566346808
 30
0.0
  0
INSERT
  5
271
  8
KON35
  2
ACAD
 10
2230.2789686957649
 20
463.99045464595349
 30
0.0
  0
INSERT
  5
272
  8
KON35
  2
ACAD
 10
999.76870324790355
 20
265.63362433360459
 30
0.0
  0
INSERT
  5
273
  8
KON35
  2
ACAD
 10
1686.0230332156291
 20
378.74400691400518
 30
0.0
  0
LINE
  5
274
  8
0
 10
4.6999999999999869
 20
28.2499602
 30
0.0
 11
4.6999999999999869
 21
-28.2499602
 31
0.0
  0
LINE
  5
275
  8
0
 10
96.700000000000017
 20
28.2499602
 30
0.0
 11
96.700000000000017
 21
-28.2499602
 31
0.0
  0
TEXT
  5
276
  8
0
 10
7.2834615200185331
 20
-35.381205727717671
 30
0.0
 40
3.2000000000000002
  1
SM 56.3.18JH200
  7
SIMPLEX
  0
LINE
  5
277
  8
0
 10
-1.5
 20
19.05000000000009
 30
0.0
 11
-1.499999999999984
 21
-19.049999999999919
 31
0.0
  0
LINE
  5
278
  8
0
 10
-1.5
 20
3.175000000000038
 30
0.0
 11
-20.499999999999972
 21
3.1750000000001242
 31
0.0
  0
LINE
  5
279
  8
0
 10
-1.5
 20
-3.1749999999999261
 30
0.0
 11
-20.499999999999972
 21
-3.1749999999999261
 31
0.0
  0
LINE
  5
27A
  8
0
 10
0.0
 20
19.05000000000009
 30
0.0
 11
-1.5
 21
19.05000000000009
 31
0.0
  0
LINE
  5
27B
  8
0
 10
-0.0000000000000142
 20
-19.049999999999951
 30
0.0
 11
-1.5
 21
-19.049999999999951
 31
0.0
  0
LINE
  5
27C
  8
0
 10
-21.0
 20
2.6750000000000962
 30
0.0
 11
-21.0
 21
-2.6749999999999261
 31
0.0
  0
LINE
  5
27D
  8
0
 10
-20.499999999999972
 20
3.1750000000001242
 30
0.0
 11
-20.499999999999972
 21
-3.1749999999999261
 31
0.0
  0
LINE
  5
27E
  8
0
 10
-20.5
 20
-3.1749999999999261
 30
0.0
 11
-21.0
 21
-2.6749999999999261
 31
0.0
  0
LINE
  5
27F
  8
0
 10
-21.0
 20
2.6750000000000962
 30
0.0
 11
-20.5
 21
3.1750000000000962
 31
0.0
  0
LINE
  5
280
  8
0
 10
149.0
 20
28.249960199999819
 30
0.0
 11
149.0
 21
-28.249960200000171
 31
0.0
  0
LINE
  5
281
  8
0
 10
152.0
 20
28.249960199999819
 30
0.0
 11
152.0
 21
-28.2499602
 31
0.0
  0
INSERT
  5
282
  8
KON35
  2
ACAD
 10
522.82707285807555
 20
413.69185239206303
 30
0.0
  0
INSERT
  5
283
  8
KON35
  2
ACAD
 10
912.81637957674172
 20
420.53580556778519
 30
0.0
  0
INSERT
  5
284
  8
KON35
  2
ACAD
 10
1599.0707095444659
 20
533.64618814818573
 30
0.0
  0
INSERT
  5
285
  8
KON35
  2
ACAD
 10
912.16701785571934
 20
414.38264189406101
 30
0.0
  0
INSERT
  5
286
  8
KON35
  2
ACAD
 10
1113.024370730727
 20
478.27187965724357
 30
0.0
  0
INSERT
  5
287
  8
KON35
  2
ACAD
 10
1300.0779962041911
 20
420.53334647513282
 30
0.0
  0
INSERT
  5
288
  8
KON35
  2
ACAD
 10
1986.3323261719161
 20
533.64372905553341
 30
0.0
  0
INSERT
  5
289
  8
KON35
  2
ACAD
 10
1299.428634483168
 20
414.38018280140892
 30
0.0
  0
INSERT
  5
28A
  8
KON35
  2
ACAD
 10
1299.428634483168
 20
414.38018280140892
 30
0.0
  0
INSERT
  5
28B
  8
KON35
  2
ACAD
 10
1360.500568263212
 20
780.94836347895205
 30
0.0
  0
INSERT
  5
28C
  8
KON35
  2
ACAD
 10
1241.509504797257
 20
696.76600267105789
 30
0.0
  0
INSERT
  5
28D
  8
KON35
  2
ACAD
 10
1692.930045353
 20
417.13372439587448
 30
0.0
  0
TEXT
  5
28E
  8
TEXT35
 10
1329.627191253255
 20
270.53186512989572
 30
0.0
 40
3.5
  1

  7
TEXT35
  0
INSERT
  5
28F
  8
KON35
  2
ACAD
 10
1740.2609349375091
 20
613.22936655822048
 30
0.0
  0
INSERT
  5
290
  8
KON35
  2
ACAD
 10
1972.426695758797
 20
617.29567051613026
 30
0.0
  0
INSERT
  5
291
  8
KON35
  2
ACAD
 10
1949.7096811695701
 20
616.24783213446233
 30
0.0
  0
INSERT
  5
292
  8
KON35
  2
ACAD
 10
2355.1378771877671
 20
616.48759033137844
 30
0.0
  0
INSERT
  5
293
  8
KON35
  2
ACAD
 10
2355.1378771877671
 20
616.48759033137844
 30
0.0
  0
INSERT
  5
294
  8
KON35
  2
ACAD
 10
2764.7471325791512
 20
617.16823033551805
 30
0.0
  0
INSERT
  5
295
  8
KON35
  2
ACAD
 10
2996.912893400442
 20
621.23453429342771
 30
0.0
  0
INSERT
  5
296
  8
KON35
  2
ACAD
 10
2282.8232362264648
 20
431.28259576526
 30
0.0
  0
INSERT
  5
297
  8
KON35
  2
ACAD
 10
1298.054367778291
 20
415.07585246798652
 30
0.0
  0
INSERT
  5
298
  8
KON35
  2
ACAD
 10
1298.054367778291
 20
415.07585246798652
 30
0.0
  0
INSERT
  5
299
  8
KON35
  2
ACAD
 10
1359.1263015583361
 20
781.64403314552965
 30
0.0
  0
INSERT
  5
29A
  8
KON35
  2
ACAD
 10
1240.135238092382
 20
697.4616723376356
 30
0.0
  0
INSERT
  5
29B
  8
KON35
  2
ACAD
 10
1691.555778648124
 20
417.82939406245242
 30
0.0
  0
TEXT
  5
29C
  8
TEXT35
 10
1328.252924548379
 20
271.22753479647332
 30
0.0
 40
3.5
  1

  7
TEXT35
  0
INSERT
  5
29D
  8
KON35
  2
ACAD
 10
1738.886668232632
 20
613.9250362247983
 30
0.0
  0
INSERT
  5
29E
  8
KON35
  2
ACAD
 10
1971.0524290539231
 20
617.99134018270797
 30
0.0
  0
INSERT
  5
29F
  8
KON35
  2
ACAD
 10
1948.335414464693
 20
616.94350180103993
 30
0.0
  0
INSERT
  5
2A0
  8
KON35
  2
ACAD
 10
2353.7636104828912
 20
617.18325999795638
 30
0.0
  0
INSERT
  5
2A1
  8
KON35
  2
ACAD
 10
2353.7636104828912
 20
617.18325999795638
 30
0.0
  0
INSERT
  5
2A2
  8
KON35
  2
ACAD
 10
2763.3728658742739
 20
617.86390000209565
 30
0.0
  0
INSERT
  5
2A3
  8
KON35
  2
ACAD
 10
2995.5386266955661
 20
621.93020396000566
 30
0.0
  0
INSERT
  5
2A4
  8
KON35
  2
ACAD
 10
2281.4489695215889
 20
431.97826543183783
 30
0.0
  0
INSERT
  5
2A5
  8
KON35
  2
ACAD
 10
913.55257010251546
 20
413.68939329941071
 30
0.0
  0
INSERT
  5
2A6
  8
KON35
  2
ACAD
 10
1099.909110944506
 20
453.89535269648712
 30
0.0
  0
INSERT
  5
2A7
  8
VERDECKT
  2
CAD
 10
1201.5187614239351
 20
183.72274944991
 30
0.0
  0
INSERT
  5
2A8
  8
VERDECKT
  2
CAD
 10
1515.187920358462
 20
266.88964912510812
 30
0.0
  0
INSERT
  5
2A9
  8
KON35
  2
ACAD
 10
2121.3673706585678
 20
403.70488295916829
 30
0.0
  0
INSERT
  5
2AA
  8
KON35
  2
ACAD
 10
2109.849625346762
 20
607.43966194165375
 30
0.0
  0
LINE
  5
2AB
  8
0
 10
143.72649757820551
 20
-28.2499602
 30
0.0
 11
152.0
 21
-28.2499602
 31
0.0
  0
LINE
  5
2AC
  8
0
 10
149.0
 20
28.2499602
 30
0.0
 11
149.0
 21
-28.2499602
 31
0.0
  0
LINE
  5
2AD
  8
0
 10
105.0
 20
28.2499602
 30
0.0
 11
105.0
 21
-28.2499602
 31
0.0
  0
ARC
  5
36D
  8
0
 10
140.30859915430679
 20
-23.685731916159259
 30
0.0
 40
4.546544158385581
 50
318.76489886056362
 51
12.339090769102761
  0
LINE
  5
36E
  8
0
 10
135.4999999999996
 20
-22.497311370252248
 30
0.0
 11
135.4999999999996
 21
-27.674353607029349
 31
0.0
  0
LINE
  5
36F
  8
0
 10
141.06760286698849
 20
-23.739349625449591
 30
0.0
 11
141.06760286698849
 21
-28.837021971141731
 31
0.0
  0
ARC
  5
370
  8
0
 10
130.69632060936701
 20
-23.679688098382378
 30
0.0
 40
4.546544158385581
 50
167.58885863363011
 51
221.16305054216909
  0
LINE
  5
371
  8
0
 10
129.93239713301111
 20
-23.739349625449591
 30
0.0
 11
127.2735024217944
 21
-26.672242097723451
 31
0.0
  0
LINE
  5
372
  8
0
 10
129.93239713301111
 20
-23.739349625449591
 30
0.0
 11
129.93239713301111
 21
-28.837021971141731
 31
0.0
  0
LINE
  5
373
  8
0
 10
141.06760286698849
 20
-23.739349625449591
 30
0.0
 11
143.7264975782048
 21
-26.672242097723451
 31
0.0
  0
LINE
  5
374
  8
0
 10
129.9323971330092
 20
-28.8370219711421
 30
0.0
 11
127.2735024217926
 21
-31.76991444341607
 31
0.0
  0
LINE
  5
375
  8
0
 10
129.9323971330092
 20
-34.702806915685557
 30
0.0
 11
127.2735024217926
 21
-31.769914443411839
 31
0.0
  0
LINE
  5
376
  8
0
 10
127.2735024217946
 20
-31.769914443413821
 30
0.0
 11
127.2735024217944
 21
-26.672242097723451
 31
0.0
  0
LINE
  5
377
  8
0
 10
135.50000000000151
 20
-27.594983715944871
 30
0.0
 11
141.0676028669904
 21
-28.8370219711421
 31
0.0
  0
ARC
  5
378
  8
0
 10
135.4182133429492
 20
-34.449617608056208
 30
0.0
 40
4.7379981698710409
 50
46.242436834653979
 51
133.75756316538181
  0
LINE
  5
379
  8
0
 10
135.50000000000151
 20
-35.944845170883021
 30
0.0
 11
141.0676028669904
 21
-34.702806915685557
 31
0.0
  0
ARC
  5
37A
  8
0
 10
135.41821334294849
 20
-29.051257420077079
 30
0.0
 40
4.7379981698710409
 50
226.24243683463379
 51
313.75756316536172
  0
ARC
  5
37B
  8
0
 10
133.05989388565689
 20
-31.750437514066959
 30
0.0
 40
1.1689013890802149
 50
141.79450567699371
 51
218.20549432302201
  0
LINE
  5
37C
  8
0
 10
135.49999999999781
 20
-35.944845170883021
 30
0.0
 11
129.9323971330092
 21
-34.702806915685557
 31
0.0
  0
LINE
  5
37D
  8
0
 10
135.49999999999781
 20
-27.594983715944871
 30
0.0
 11
129.9323971330092
 21
-28.8370219711421
 31
0.0
  0
ARC
  5
37E
  8
0
 10
137.7765328002391
 20
-31.750437514066331
 30
0.0
 40
1.1689013890802149
 50
321.79450567699371
 51
38.205494323022037
  0
LINE
  5
37F
  8
0
 10
141.0676028669904
 20
-34.702806915685557
 30
0.0
 11
143.7264975782069
 21
-31.769914443411839
 31
0.0
  0
LINE
  5
380
  8
0
 10
141.0676028669904
 20
-28.8370219711421
 30
0.0
 11
143.7264975782069
 21
-31.76991444341607
 31
0.0
  0
LINE
  5
381
  8
0
 10
143.7264975782069
 20
-31.769914443411839
 30
0.0
 11
143.7264975782048
 21
-26.672242097723451
 31
0.0
  0
ARC
  5
382
  8
0
 10
135.8057372602731
 20
-30.219663926119019
 30
0.0
 40
10.086132995562879
 50
45.458446179561122
 51
137.96236487082291
  0
ARC
  5
383
  8
0
 10
135.49999999999221
 20
-27.966886057931688
 30
0.0
 40
10.637884102001371
 50
29.661149538212388
 51
150.33885046152321
  0
ARC
  5
384
  8
0
 10
135.54535045572729
 20
-21.176078054904369
 30
0.0
 40
10.845379634911399
 50
30.914297532252661
 51
150.03146106313639
  0
LINE
  5
385
  8
0
 10
126.14999999999959
 20
-23.724773583776638
 30
0.0
 11
126.14999999999959
 21
-15.75854639930537
 31
0.0
  0
LINE
  5
386
  8
0
 10
128.3147144203445
 20
-25.523733727043481
 30
0.0
 11
128.3147144203445
 21
-23.465801652142261
 31
0.0
  0
LINE
  5
387
  8
0
 10
135.4999999999996
 20
-22.497311370252248
 30
0.0
 11
141.06760286698849
 21
-23.739349625449591
 31
0.0
  0
LINE
  5
388
  8
0
 10
135.4999999999996
 20
-22.497311370252248
 30
0.0
 11
129.93239713301111
 21
-23.739349625449591
 31
0.0
  0
LINE
  5
389
  8
0
 10
144.84999999999971
 20
-15.60420617162927
 30
0.0
 11
144.84999999999971
 21
-23.465801652142261
 31
0.0
  0
LINE
  5
38A
  8
0
 10
142.8804168693905
 20
-25.523733727043481
 30
0.0
 11
142.8804168693905
 21
-23.030854064081868
 31
0.0
  0
ENDSEC
  0
EOF
